X
تبلیغات
رایتل
  H&H
Guitar
1388/04/14


1388/04/14

H&H-guitar-best music


1388/04/14
متن آهنک

متن آهنگ بسیار بسیار قشنگ دوست دارم از فریدون 

 

دوست دارم دوست دارم

دوست دارم دوست دارم

قد تمومه آدما قد تمومه عاشقا

دل بردیو پنهون شدی

از من چرا ای بی وفا

عاشق شدم عاشق شدم

از چشم من پنهون نشو

تنها شدم تنها شدم

تنها نرو تنها نرو

پر می کشی تا آسمون

من خسته ی بی بال و پر

روزی که بر گردی دگر از من نمی بینی اثر

من مثل ابر ره گذرم

می بارم از شب تا صحر

دریا نمی گیره نشون از قطره های در به در

 

 


1388/04/14

نام آلبـــوم : از تو دورم...      

نام خواننده: فریدون      

 لینک دانلود مستقیم ( Wma با کیفیت 64kb )

        

                

 

۱. باران

۲. وقتی بارون میزنه

۳. از تو دورم

۴. دوستت دارم

۵. گل ناز

۶. دلم تنگه

۷. هنوز تشنه ام

۸. گل نیلوفر


1388/04/14

آهنگ جدید و بسیار زیبای اندی به همراه خواننده مشهور آمریکایی ( Bon Jovi ) به نام Stand By Me با سه کیفیت

 

 

کیفیت MP3/256KB

Download


=-=-=-=-=-=-=


کیفیت MP3/128KB

Download

=-=-=-=-=-=-=


کیفیت OGG/64KB

Download
 


1388/04/14

آهنگ جدید و زیبای داریوش , ستار , شهره آغداشلو , مرتضی و کامیار به نام ایران ما با دو کیفیت

www.Yazd-Music3.com 

 

کیفیت MP3/128KB

Download

کیفیت OGG/64KB
Download


1388/04/14

آلبوم جدید و بسیار زیبای رضا راد به نام شادی حرومه با دو کیفیت

www.Yazd-Music3.Com 

 کیفیت MP3 128KB

 01 Shadi Haroome.mp3
02 Dige Miram.mp3
03 Fajee.mp3
04 Bazi.mp3
05 Are Khob.mp3
06 Saate Sheni.mp3
07 Delam Az Asheghi Sire.mp3

08 Shadi Haroome (Bikalam).mp3

 

کیفیت OGG 64KB

  01 Shadi Haroome.ogg
02 Dige Miram.ogg
03 Fajee.ogg
04 Bazi.ogg
05 Are Khob.ogg

06 Saate Sheni.ogg
07 Delam Az Asheghi Sire.ogg

08 Shadi Haroome (Bikalam).ogg


1388/04/14

آهنگ جدید و بسیار زیبای منصور به نام ندای عشق با دو کیفیت

www.Yazd-Music3.Com 

 

کیفیت MP3/128KB

Download


=-=-=-=-=-=-=


کیفیت OGG/64KB

Download


1388/04/14

نام آلبـــوم: رگبار

نام خواننده: سیاوش قمیشی

 

لینک دانلود مستقیم (Wma با کیفیت 64kb)
        

 

۱- جنگل بدون ریشه

۲- دل تنگی

۳- چوب خط

۴- گل من

۵- پرنده مهاجر

۶- خدا جون

۷- تو بارون که رفتی

۸- دنبال خودت نگرد

       
















   

 

 


1388/04/12

آلبوم نفسهای بی هدف از محسن یگانه 

 


1388/04/12

آلبوم با تو می مونم از گروه هفت  

اگر نیاز به آرامش دارین این آهنگ گوش بدید 

 

۱ یه لحظه چشماتو ببند 

۲ واست می میرم 

۳ تورو می خوام 

۴ بذار دستاتو بگیرم 

۵ صدا 

۶ دروغگو 

۷ پریا 

۸ ستاره 

۹ با تو می مونم 

۱۰ کوچه


1388/04/12

آلبوم قشنگ سیروان به نام ساعت۹ 

  

۱ چه حالی داره 

۲ امروز می خوام بهت بگم... 

۳ آره  

۴ زندگی همین امروزه 

۵ منو نگاه کن 

۶ دلم گرفته 

۷ تکرار 

۸ اون روزا 

۹ ساعت ۹ 

۱۰ تو مریضی


1388/04/12
بهترین های آهنگ

 

آهنگ زیبای محسن یگانه به نام آی خدا دل گیرم ازت


1386/08/07

 

آهنگ : تو می دونی

اثر : پسران آفتاب [Sun Boys]

ریتم  : 4.4

 

 

e||-----------0--4--2---0------0-----|-------4--2---0-------|-------------0--4--7--5--5--------------------------4-----|

B||----2--4----------------4----------|----2-------------4----|------2--4---------------------5---4---4------7-----------|

G||------------------------------------|------------------------|-------------------------------------------------------------|

D||------------------------------------|------------------------|-------------------------------------------------------------|

A||------------------------------------|------------------------|-------------------------------------------------------------|

E||------------------------------------|------------------------|-------------------------------------------------------------|

 

 

 

[bm]تو نمی دونی من چی کشیدم وقتی که گفتی تو[em] را نمی خوام

 

باور ندارم که دیگه نیستی[A] حالا تو رفتی D]من اینجا تنهام

 

[BM]یه شوخی بودو یه قصه تلخ وقتی که گفتی تو[Em] را نمی خوام

.

خیال می کردم می خوای بترسم[A] شاید هنوزم[D] باور نکردم

 

[BM]چشمای گریون دستای خسته [G]دوری چشمات [A]منو شکسته

.

رنگ اون چشات چشای سیات [EM]زنجیر دلت دستامو بسته

 

[BM]شاید یه حسود چشممون زده[G] بگو کی مارو[A] تنهایی دیده

 

ولی میدونم تو آسمونا [EM]قصه مارو یکی شنیده

 

[BM]تو باور نکن هر کی بهت گفت [G]پیشت می مونم[A] پیشت می مونم

 

باور ندارم که دیگه نیستی[FM] تا ته دنیا از تو می خونم

 

.[Dm]چشمای گریون دستای خسته [Bb]دوری چشمات [C]منو شکسته

.

رنگ اون چشات چشای سیات [A]زنجیر دلت دستامو بسته

 

راهنمای ریتم4.4

ضرب اول روی سیم های باس از بالا به پایین با زمان سیاه

ضرب دوم روی سیم های زیراز پایین به بالا با انگشت p بازمان چنگ

ضرب سوم روی سیم های زیر از بالا به پایین به صورت آپوکادو با زمان چنگ

ضرب چهارم روی سیم های زیر از پایین به بالا با زمان چنگ

ضرب  پنجم روی سیم های زیر از بالا به پایین با زمان چنگ 

ضرب ششم روی سیم های زیر از پایین به بالا با زمان چنگ

 

-------  www.handh.blogsky.com --------

 

 


1386/04/31
موسیقی

اینم یه آهنگ برای دوستداران امید:

 

 هر دو عاشق

خواننده : امید

آلبوم : هر دو عاشق

ترانه : خودت می دونی 

*****************************************************************

می دونی هلاکتم
عاشق سینه چاکتم
می دونی که عمریه
در تب التماستم
خودت می دونی عزیزی
همینه که می گریزی
بذار همه بدونن عاشقم
اسیر و فدای عشقم من
با تو مستم تو رو می پرستم
با تو مستم تو رو می پرستم
عزیزم با منی همیشه
واسه من هیچ کی تو نمیشه

می دونی دوست دارم قدر یه دنیا
قدر اون ستاره های آسمون ها
پا به پای تو میام هر جا که باشی
ببرم با خود به شهر آرزوها

می دونی دوست دارم قدر یه دنیا
قدر اون ستاره های آسمون ها
پا به پای تو میام هر جا که باشی
ببرم با خود به شهر آرزوها
بمون و بمونم تو ای آروم جونم
اسم قشنگت شده ورد زبونم

می دونی هلاکتم
عاشق سینه چاکتم
می دونی که عمریه
در تب التماستم
خودت می دونی عزیزی
همینه که می گریزی
بذار همه بدونن عاشقم
اسیر و فدای عشقم من
با تو مستم تو رو می پرستم
با تو مستم تو رو می پرستم
عزیزم با منی همیشه
واسه من هیچ کی تو نمیشه


می دونی هلاکتم
عاشق سینه چاکتم
می دونی که عمریه
در تب التماستم
خودت می دونی عزیزی
همینه که می گریزی
بذار همه بدونن عاشقم
اسیر و فدای عشقم من
با تو مستم تو رو می پرستم
با تو مستم تو رو می پرستم
عزیزم با منی همیشه
واسه من هیچ کی تو نمیشه


1386/04/28
آکورد
برای دوست داران گیتار
Desperado
                  B7
Que me gusta lo mejor
B7
A mujeres no me faltan,
                   Em
Ni al dinero, ni el amor
 
Am          Em
ay, ay, ay, ay
B7          Em
ay, ay mi amor
Am          Em
ay mi morena, 
B7          Em
de mi corazon
 
---> INTRO WITH RYTHM GUITAR <---
 
me gusta tocar guitarra
me gusta cantar el sol
mariachi me acompana
quando canto my cancion
 
me gustan tomar mis copas
aguardiente es lo mejor
tanbien la tequilla blanca
con su sal le da sabor
 
ay, ay, ay, ay
ay, ay mi amor
ay mi morena, 
de mi corazon
 
---> SOLO AS TABBED BELOW <---
 
me gusta tocar guitarra
me gusta cantar el sol
mariachi me acompana
quando canto my cancion
 
me gustan tomar mis copas
aguardiente es lo mejor
tanbien la tequilla blanca
con su sal le da sabor
 
ay, ay, ay, ay
ay, ay mi amor
ay mi morena, 
de mi corazon
 
ay, ay, ay, ay
ay, ay mi amor
ay mi morena, 
de mi corazon
 
---> ENDING AS TABBED BELOW <---
 
 
==============================  INTRO  ===============================
 
-------7-7--7-7--8-7--7----8-7-7----5--|-- 5-5--5-5-7-5--5-5-7-5-5----
-----8-8-8--8-8--8-8--8----8-8-8----7--|- -7-7--7-7-7-7--7-7-7-7-7-7-8
---9--------------------9--------9----|-7------------------------8-9
-9-------------------------------------|------------------------------
---------------------------------------|------------------------------
---------------------------------------|------------------------------
                                    ___|   
                                    |
                                    2. guitar enters with Em strumming
 
 
==============================  SOLO  ================================
 
--------------12---------------------11-------------------------------
----12-----12----12----12--------12------12--10--12-------------------
-9------12----------12------------------------------------------------
---------------------------9------------------------9-----------------
----------------------------------------------------------------------
----------------------------------------------------------------------
 
----11------------------12-----------------12-------------------------
-12----12-10-12------12----12----12-----12----12----12----------------
------------------------------12-----------------12-------------------
-----------------9------------------9------------------9--------------
----------------------------------------------------------------------
----------------------------------------------------------------------
 
----11----------------|--11-------------------------12--------------12
-12----12-10-12--------------10--12--------10-12-------------12-------
----------------------------------------------------------12----------
-----------------9--------------------9-----------9--------------9----
----------------------------------------------------------------------
----------------------------------------------------------------------
 
-----------12---|---------10----10---8------8---7---7---5---5--3--3---
-----12----------------12----12---------10--------8-------7------5----
-12-----------------12------------------------------------------------
---------9------------------------------------------------------------
----------------------------------------------------------------------
----------------------------------------------------------------------
 
-2---3---0---0--------------------------------------------------------
---3-------0----3--0--1--0--------------------------------------------
-------------------------------4-----2--4--5-4-2-------2--------------
-------------------------------------------------5-4-----5-4-2-~~~----
-------------------------------------------------------------------2--
----------------------------------------------------------------------
 
----------------------------------------------------------------------
----------------------------------------------------------------------
-------8--9--11----------10--11--12-----------8--9--11----------------
-9--9--------------9--9-----------------9--9-------------9------------
----------------------------------------------------------------------
----------------------------------------------------------------------
 
 
---7--5--3--2--0------------------------------------------------------
----------------------------------------------------------------------
---8--5--4--2--0------------------------------------------------------
----------------------------------------------------------------------
----------------------------------------------------------------------
----------------------------------------------------------------------
 
 
=============================  ENDING  ===============================
 
1st guitar:
-12-12-12-12-12-12-12-12-..... quickly
--------------------------
--------------------------
--------------------------
--------------------------
--------------------------
 

2nd guitar strums Em

 

 


1386/04/28
موسیقی

برای دوست داران موسیقی توصیه می کنم این آهنگ رو حتمآ گوش بدن:

یک و دو بیت از آهنگ:

 

*واست می میرم*

 

 

               سد این نگاه بشکن  فاصله سزای مانیست

 

توببین واسه همیشه این جدایی حق ما نیست

 

بودن تو آرزومه  حتی واسه یه لحظه  می میرم بی تو

 

 

 

برای شنیدن این آهنگ به سایت گیتارینه بروید.

www.guitarineh.com


عناوین آخرین یادداشت ها
خوش آمدید
آرشیو
موضوع بندی
عضویت کاربران بلاگ اسکای
نام کاربری
تعداد بازدیدکنندگان : 15202